EXERCÍCIOS E DICAS PARA CONSEGUIR AGILIDADE

Blog de violaoeguitarra :VIOLAO E GUITARRA ON-LINE, EXERCÍCIOS E DICAS PARA CONSEGUIR AGILIDADE

Esses são exercicios muito simples, que devem ser feitos com bastante precisão. Lembre-se , para tocar um instrumento (independente do qual) , precisa -se de logica,imaginação e do principal,precisa gostar do que está fazendo.


Observem a tablatura:

d: 1 2 3 4 1 2 3 4 1 2 3 4 1 2 3 4 1 2 3 4 1 2 3 4 4 3 2 1 4 3 2 1 4 3 2 1 4 3 2 1 4 3 2 1 4 3 2 1

p: v ^ v ^ v ^ v ^ v ^ v ^ v ^ v ^ v ^ v ^ v ^ v ^ v ^ v ^ v ^ v ^ v ^ v ^ v ^ v ^ v ^ v ^ v ^ v ^

e:|----------------------------------------1-2-3-4-4-3-2-1--------------------------------------------|
B:|--------------------------------1-2-3-4-----------------4-3-2-1------------------------------------|
G:|------------------------1-2-3-4---------------------------------4-3-2-1----------------------------|
D:|----------------1-2-3-4-------------------------------------------------4-3-2-1--------------------|
A:|--------1-2-3-4-----------------------------------------------------------------4-3-2-1------------|
E:|1-2-3-4---------------------------------------------------------------------------------4-3-2-1----|

Esse é um metodo muito simples de palhetada alternada.

Obs:Lembrem-se de apertarem as cordas com firmeza.
E se vc tiver um violão, treine essas escalas com o violão pois assim vc ganha uma palhetada mais rapida na guitarra pois as cordas do violão são mais pesadas.

d:O dedo q vc vai usar.
p:O movimento da palheta. v= palhetada para baixo ^=palhetada para cima
Obs: Isso vale para todos os exercicios.

Esse exercicio deve ser feito usando apenas 2 dedos


d 1 3 1 3 1 3 1 3 1 3 1 3 4 2 4 2 4 2 4 2 4 2 4 2
p v ^ v ^...
e|--------------------1-3-4-2----------------------
B|----------------1-3---------4-2------------------
D|------------1-3-----------------4-2--------------
G|--------1-3-------------------------4-2----------
A|----1-3---------------------------------4-2------
E|1-3-----------------------------------------4-2--

d 2 4 2 4 2 4 2 4 2 4 2 4 5 3 5 3 5 3 5 3 5 3 5 3
p v ^ v ^...
e|--------------------2-4-5-3----------------------
B|----------------2-4---------5-3------------------
D|------------2-4-----------------5-3--------------
G|--------2-4-------------------------5-3----------
A|----2-4---------------------------------5-3------
E|2-4-----------------------------------------5-3--

Agora usando três dedos.

d 1 2 3 1 2 3 1 2 3 1 2 3 1 2 3 1 2 3 4 3 2 4 3 2 4 3 2 4 3 2 4 3 2
p v ^ v ^...
e|-------------------------1-2-3---4-3-2---------------------------------------------2-3-4-5-4-3----------------------
B|--------------------1-2-3-------------4-3-2-----------------------------------2-3-4-----------5-4-3-----------------
G|---------------1-2-3-----------------------4-3-2-------------------------2-3-4---------------------5-4-3------------
D|----------1-2-3---------------------------------4-3-2---------------2-3-4-------------------------------5-4-3-------
A|-----1-2-3-------------------------------------------4-3-2-----2-3-4-----------------------------------------5-4-3--
E|1-2-3-----------------------------------------------------2-3-4-----------------------------------------------------

Usando os quatro dedos
1234 1234 1234 1234 1234 1234 1234
v ^ v ^...
e|--------------------------------------------------------------------------
B|--------------------------------------------------------------------------
G|--------------------------------------------------------------------------
D|-------------------------------------------------------------1-2-3-4--etc-
A|-------------------------------1-2-3-4--5-6-7-8--9-10-11-12---------------
E|-1-2-3-4--5-6-7-8--9-10-11-12---------------------------------------------


raphael maia

curso, dicas, exercicios, guitarra, musica, tocar, violao

quinta 13 março 2008 17:11 , em Aulas de Violão e Guitarra



Nenhum comentário EXERCÍCIOS E DICAS PARA CONSEGUIR AGILIDADE



Seu comentário :

(Opcional)

(Opcional)

error

Importante: comentários racistas, insultas, etc. são proibidos nesse site.Caso um usuário preste queixa, usaremos o seu endereço IP (54.204.231.253) para se identificar     



Abrir a barra
Fechar a barra

Precisa estar conectado para enviar uma mensagem para violaoeguitarra

Precisa estar conectado para adicionar violaoeguitarra para os seus amigos

 
Criar um blog